A moment of clarity

From Avett Brothers Tabs
Jump to: navigation, search

Capo II
Standard Tuning

 e--10--10----7\5-5-----8----------------------8-7--5--3/10-
 B-------------------------7---7-5\3-3/8-12-1/5-------------
 G-------------------0------0-9-----------------------------
 D---------0-------0---------0--------------------0---------
 A--10--10----5\3-3-----7-------------------3---------------
 E-------------------------8---------3-----------3---(3)/10-
 
 e--10----12-14-12--7--8-9-10--8-7-5-7-5-3-5-3-2-3/10--5-7-5-3-
 B----12-------------8---------------------------------0-----0-
 G------12------------7--------------------------------0-----0-
 D-----------------------------------------------------0-----0-
 A-----------------------------------------------------3-----2-
 E--------------8----------7---5-----3-----2-----0-----------3-
 
 e--10--10----7\5-5-----8----------------------8-7--5--3/10-
 B-------------------------7---7-5\3-3/8-12-1/5-------------
 G-------------------0------0-9-----------------------------
 D---------0-------0---------0--------------------0---------
 A--10--10----5\3-3-----7-------------------3---------------
 E-------------------------8---------3-----------3---(3)/10-
 
 e--10----12-14-12--7--8-9-10--8-7-5-7-5-3-5-3-2-1/3-/10--5-7-5--3-
 B----12-------------8---------------------------2/4-/11--0--5-3-0-
 G------12------------7-----------------------------------0------0-
 D--------------------------------------------------------0------0-
 A--------------------------------------------------------3------2-
 E--------------8----------7---5-----3-----2-----0---------------3-
 
 e-7--7--------5-----------------------0-
 B-3--10-8-7-8-8-7-5-7-7-5-3-5-6/8-5-3-1-
 G-4--8--------6-------4---------------0-
 D-3--7--------5-------3---------------2-   X2
 A-5--9------7-7-------5-----3---------3-
 E-3--7--------5-----5-3-----------3-----
 
 e----5-7-8-10-7-10-12-5-----5---------
 B---7-----------------5----7-7-----^7-
 G--7------------------5---7---7---^7--
 D-0-------------------7--0-----0-^7---
 A---------------------0---------------
 E----------7-------8------------------
 
 e--10--10----7\5-5-----8----------------------8-7--5--3/10-
 B-------------------------7---7-5\3-3/8-12-1/5-------------
 G-------------------0------0-9-----------------------------
 D---------0-------0---------0--------------------0---------
 A--10--10----5\3-3-----7-------------------3---------------
 E-------------------------8---------3-----------3---(3)/10-
 
 e--10----12-14-12--7--8-9-10--8-7-5-7-5-3-5-3-2-1/3-/10--5--7--5---3-
 B----12-------------8---------------------------2/4-/11--0---5--3--0-
 G------12------------7-----------------------------------0----7--5-0-
 D--------------------------------------------------------0---------0-
 A--------------------------------------------------------3---------2-
 E--------------8----------7---5-----3-----2-----0------------------3-
Personal tools
Namespaces

Variants
Actions
Navigation
Toolbox
Ads