All My Mistakes

From Avett Brothers Tabs
Jump to: navigation, search

Capo 1

  • Special Chords:

F* (x-x-3-4-1-1)
Cmaj7 (x-3-2-0-0-0)

 Intro
   (F)   (F*)(F) (F*)(C)  (Cmaj7)   (F)   (G)
 e|-1-----1---1---1---0-----0--------1-----3--------------------------|
 B|-1-----1---1---1---1-----0--------1-----0--------------------------|
 G|-2-----4---2---4---0-----0--------2-----0--------------0----2--2/4-|
 D|-3-----3---3---3---2-----2--------3-----0----0--0--0h2---0--2--2/5-|
 A|-x-----x---x---x---3-----3--------3-----2--------------------------|
 E|-x-----x---x---x---x-----x--------1--2--3--------------------------|


(C)Shooting off (Cmaj7)vicious (F)collections of words
(C)The losers make (Cmaj7)facts by the (F)things they have heard
(C)And I find (Cmaj7)myself trying (F)hard to (G)defend them

 |-----------------------|
 |-----------------------|
 |-----------0----2--2/4-|
 |-0--0--0h2---0--2--2/5-|
 |-----------------------|
 |-----------------------|


(C)I made (Cmaj7)decisions some (F)right and some wrong
(C)And I let some(Cmaj7) love go I (F)wish wasn't gone
(C)These things and(Cmaj7) more I wish (F)I had not done(G)

(G)But I can't go (F)back
And I don't want (C)to
'Cause all my (F)mistakes
They brought me to (C)you

I have some "friends" they don't know who I am
So I write quotations around the word friends
But I have a couple that have always been there for me

And I missed some fun 'cause I worked through the dawn
Expecting your praise when I returned home
But I paid the cost 'cause I got left alone for the songs

But I can't go back
And I don't want to
'Cause all my mistakes
They brought me to you

 Outro
   (F)   (F*)(F) (F*)(C)
 e|-1-----1---1---1---0-|
 B|-1-----1---1---1---1-|
 G|-2-----4---2---4---0-|
 D|-3-----3---3---3---2-|
 A|-x-----x---x---x---3-|
 E|-x-----x---x---x---x-|
Personal tools
Namespaces

Variants
Actions
Navigation
Toolbox
Ads