At the Beach

From Avett Brothers Tabs
Jump to: navigation, search

All chords Barred
s = slide

This is whistling melody at the beginning:

 e---10-7-----7-----------10-7-----7------------7h10p7---------------7-----------------
 B---------10----10-8-----------10----10-8---8--------------------8------10-8-----8-(x2)
 G---------------------------------------------9--------------7-9--------------9-------
 D-------------------------------------------------------------------------------------
 A-------------------------------------------------------------------------------------
 E-------------------------------------------------------------------------------------

(B)s(C) (F#)s(G)
I know that you're smiling baby, I don't even need to see your face
Sunset at the shoreline, we are laughing breaking up just like the waves
Are you feeling, feeling, feeling like I'm feeling like I'm
Floating floating up above that big blue ocean
Sand beneath our feet big blue sky above our heads no need to keep

(G)the stresses from our every day life (D)on our minds
(C)we have got to leave all that (G)behind

  • Solo #1: Nothing too complicated here. Just listen to the song for timings.
 e-10-7---------------------------------8-7-----------7-----------
 B-------10-8---10-8---8--10-8---8----------10-8-10------10-8-----
 G-------------------9---------9---9--------------------------9---
 D----------------------------------------------------------------
 A----------------------------------------------------------------                      
 E-----------------------------------------------------------------
 
 e--10-7-----7----------------
 B--------10----10-8---8--------
 G--------------------9---9------
 D------------------------------
 A------------------------------
 E------------------------------
   
 e--10-7-----7------------------------6s7--7--6s--7-----
 B--------10----10-8-10-8---8---------7s8--8--7s--8-----
 G------------------------9-----------6s7--7--6s--7-----
 D------------------------------------------------------
 A------------------------------------------------------
 E------------------------------------------------------
 
 e-------------------------------------------------------
 B----0-----0-----0------0-------------------------------
 G-0h2---0h2--0h2---0h2-----2-0----0---------------------
 D-------------------------------------2---2-------------
 A--------------------------------------------3-2-3------
 E----------------------------------------------------3--
 

well, I have got a sister and she has got a baby, with brand new eyes
And her daddy is an engineer, and they just took her to the sea for the first time
Now they're under, under underneath a big umbrella
Summer summer summer time to help us forget nine to five
We have got to leave all that behind

  • Solo #2: Little trickier. Again, listen for timings.
 e-10-7-----------7-10-7---------------------------------------
 B-------10-8-10----------10------s10-8---8-10---8----8--------
 G--------------------------------------9----------9----9------
 D-------------------------------------------------------------
 A-------------------------------------------------------------
 E-------------------------------------------------------------
 
 e--8-7-----------7-----------10-7----7-----------10-7-----------
 B-------10-8-10----10-8-----------10---10-8---8-------10-8-10-8-
 G-----------------------9-------------------9-------------------
 D---------------------------------------------------------------
 A---------------------------------------------------------------
 E---------------------------------------------------------------
 
 e--15-15-15-15-15---14-12-10----10-----15-15-15-15-15---14-12-10-----10----
 B----------------------------12----12-----------------------------12----12--
 G---------------------------------------------------------------------------
 D---------------------------------------------------------------------------
 A---------------------------------------------------------------------------
 E---------------------------------------------------------------------------
 
 e---7----7----------------------7-----7---------------------------------------------------7-8-7----7-8-7-------10-12-14-12-10-12-10----10--------
 B-----10---10-8----8-10-8-------10---10-8-------10-8-----8------------------------10-------10--------10-----------------------------12-------
 G----------------9----------------------------9--11--------------9-7-9-7--------------------------------------------------------------------------
 D--------------------------------------------------------------------------7-9-7--5-----------------------------------------------------
 A----------------------------------------------------------------------------------------------------------------------------------------
 E--------------------------------------------------------------------------------------------------------------------------------------
 
 e-----------------------------------------
 B-----10-------10---------------------------
 G-----11-------11--------------------------
 D-----10-------12--------------------
 A-----------------------------------------
 E-------------------------------------------

(G)I have
(Em)worries to
(Am)give to the (D)sea
(G)We can
(Em)walk dear the
(Am)pier is farther than it
(D)seems

Midnight at the shoreline, fireworks above us of screaming blue
They're sent from some teenager, and kid whoever you are, I am thanking you
Now we're dancing, dancing, dancing with no music
What is happening, happening, happening no feeling
Except this is right
We just have to leave all that behind

Personal tools
Namespaces

Variants
Actions
Navigation
Toolbox
Ads