Be On My Side

From Avett Brothers Tabs
Jump to: navigation, search

(C)Be on my (G)side
Ive only (F)one night to (G)decide to be (C)alright
be on my (G)side
dont let the (F)wine inside you (G)decide nor sway your (C)mind

h-hammer on
s-slide

 e-----------0--1--0---------3-----
 B---1h3----------------1----------
 G---------------------------------
 D---------------------------------
 A---------------------------------
 E---------------------------------
 
 e---0h1h3s5--3--0-----------
 B----------------------1----
 G---------------------------
 D---------------------------
 A---------------------------
 E---------------------------
 
 e--------0--1--0-----------------------
 B---1h3------------1------------------
 G----------------------0----2-2s4-- (C)
 D-------------------------------------
 A-------------------------------------
 E-------------------------------------


(C)be on my (G)side
I cant des(F)cribe the war I will (G)fight come
morning (C)light
be on my (G)side
you want to (F)cry but we dont have (G)time so
are you (Am)mine now if theres a (G)part of you thats (C)running for (F)me
(Am)be careful of your (G)step
I never wanna (C)see you (F)fall

(G)Ohhh(F)ohhhhh
(G)Ohhhh(F)ohhhh
(G)Ohhhh(C)ohh be on my side....etc

Personal tools
Namespaces

Variants
Actions
Navigation
Toolbox
Ads