Bella Donna

From Avett Brothers Tabs
Jump to: navigation, search

Capo III

 e-------------------------------
 B--0----------------------------
 G----0-----0----0----0----0-----
 D----------0----0----0----0-----
 A-------------------------------
 E--3-----3----3----3----3-------
 e-----------------------------------------------------
 B--0-------1--0------0--------------------------------
 G----0------------2----------0----0----0----0----0----
 D----------------------------2----2----2----2----2----
 A-------------------------3-----3----3----3----3------
 E--3----3---------3-----------------------------------
 e-----------------------------------
 B--0-------1--0------0--------------
 G----0------------2---------0------- repeat
 D---------------------------0-------
 A--3----3---------3-----------------
 E-------------------------3---------


Baby I asked you not to keep me waiting
I told you now to keep me waiting
Now the afternoon is fading on

Donna, Bella Donna have you seen me
Have you ever really seen me
Like I want you to see me now

Lonesome like you were when you were sixteen
But maybe even I weren't listening
Did I help when I was kissing you

Donna, Bella Donna are you listening
Are you ever really listening
Like I want for you to listen now

Personal tools
Namespaces

Variants
Actions
Navigation
Toolbox
Ads