Bring Your Love To Me

From Avett Brothers Tabs
Jump to: navigation, search
 Tuning: Drop D
 
      D      D/E      D/F#      G/B      A      Fm/C#
 e|---2-------2--------2---------3-------0--------2---------|
 B|---3-------3--------3---------0-------2--------2---------|
 G|---2-------2--------2---------0-------2--------2---------|
 D|---0-------2--------4---------0-------2--------4---------|
 A|------------------------------2-------0--------4---------|
 D|--(0)----------------------------------------------------|
 
 
 This particular riff is used throughout:
 
         D Riff:
 e|---------------2------|
 B|---------------3------|
 G|--------2------2------|
 D|--0-0-4--------0------|
 A|----------------------|
 D|----------0-----------|
 
 Note: The D in parenthesis continues from the end of the previous line.
 
 ==========================================
 
 Intro:
 
 D   D   D   D
 D   D   D   D
   
 D
 Bring your love to me
                       G/B
 I will hold it like a newborn child
 D
 One of my own blood
                       G/B
 And I might just even sing a song
    A              D
 to keep it calm       Hmmmm...
 
 
 D
 If you're wondering, am I capable
     G/B
 God knows I am
 D
 And if it's meant to be
                      G/B
 I will go alone, God knows I can
 D                                          G/B
 Just not as well, and besides what kind of fun is there
 A              D    D/E   D/F#
 to be had with no   one   else?
 
 
 (D) D G A 
 D D G A
 
 
 D              G/B
 And I can only stand here still
 D              G/B
 And I can only hope you will
 Fm/C#  G/B   Fm/C#  G/B  D             Fm
 ke  -  ep    me  -  e in focus long enough to tell
     D     D/E    D/F#   G/B
 I'm try - ing    to     help
     D     D/E    D/F#   G/B
 I'm try - ing    to     help
     D     D/E    D/F#   G/B
 I'm try - ing    to     help
 
 
 D   D   D   D
 D   D   D   D
 
 
 D
 Bring your love to me
                       G/B
 I will hold it like a dandelion
 D
 One I want to save, one I want to keep
 G/B                  A              D    D/E   D/F#
 from the breeze that follows me and no   one   else
 
 
 (D) D G A 
 D D G A
 
 
 D          G/B
 I can only stand here still
 D              G/B
 And I can only hope you will
 Fm/C#  G/B   Fm/C#  G/B  D             Fm
 ke  -  ep    me  -  e in focus long enough to tell
     D     D/E    D/F#   G/B
 I'm try - ing    to     help
     D     D/E    D/F#   G/B
 I'm try - ing    to     help
     D     D/E    D/F#   G/B
 I'm try - ing    to     help
Personal tools
Namespaces

Variants
Actions
Navigation
Toolbox
Ads