Die, Die, Die

From Avett Brothers Tabs
Jump to: navigation, search

Capo I

(G)(G/E)(G)(G/E)

(G)She's fighting (Bm)with the (C)sky
(G)She (Bm)thinks she (Em)can (C)
(G)Live in with(Bm)in a (C)lie
(G)She (Bm)thinks she (Em)can (C)

(G)But no(Bm)body (Em)knows what (C)lies be(G)hind
The (Bm)days (Em)before the (C)day we (G)die
(G)Die Die (Em)Die Die (Bm)Die Die Die (C)
(G)Die Die (Em)Die Die (Bm)Die Die Die (C)
(C)Die Die Die

She puts her hands against
The life she had
Living with ignorance
Blissful and sad

Chorus

(G)You can (Em)try to (Am)swim the (D)sea
But (G)say good(Em)bye to (Am)you and (D)me (C)

Solo:

 e---4s5--3--2--3--5--3--2--2--2----5--3--2--3--5--0--0--
 B---6s7--5--3--5--7--5--3--0--3----7--5--3--5--7--8--10-
 G-------------------------------------------------------
 D-------------------------------------------------------
 A-------------------------------------------------------
 E-------------------------------------------------------
 e---5--3---2--3--5--3--2--2--2--3s5---0s0--
 B---7--5---3--5--7--5--3--0--3--5s7---8s10-
 G------------------------------------------
 D------------------------------------------
 A------------------------------------------
 E------------------------------------------


You can try to swim the sea
You can try to hold the breeze

etc...

Personal tools
Namespaces

Variants
Actions
Navigation
Toolbox
Ads