Four Thieves Gone

From Avett Brothers Tabs
Jump to: navigation, search

"Four Thieves Gone" submitted by Jake W.

here's the main theme that's heard throughout the song:

e-----------------------------------------------------------------------------

B-------------------------------------------------------------------------------3---

G---7----5----4------12----11------------7-----5----4----0-----2-----2---------

D---------------------------------12-------------------------------------------

A-------------------------------------------------------------------------------

E------------------------------------------------------------------------------


Four thieves gone. One woke up.

Said, "We can't use the songs we wrote."


Swear I've heard that ve-ry lie.................................I can't claim this music mine

e-----------------------------------------------------------------------------------------------------

B----------------------------------------------------------------------------------------------------

G---12----11------9-----------------------------------------------------------------------------------

D--------------------------12----10-----9-------------------------------12-----------9-----------12---

A-------------------------------------------------12---------12----12----------10---------10---------

E-----------------------------------------------------------------------------------------------------


(G) Three thieves left. One got smart.

(G) I saw him (Em) leaving (Am) in his (D )car.


(G) From the road, I heard him scream.

(G) It lacks (Em) ori-gin-(Am)-al-it-(D)-y.

Solo: If you're playing with someone else, have them pick the main theme while you play this:


..G (strum) C (strum) G (strum) (Pick these three) (Strum G for a while) (Let ring)(pick this instead of Am) D (strum)

e------1--------------------1------------3------2----------------------1------------------------------------------------2-

B----------------1---------------------------------------2---------------------------------------------------------------3-

G-----------------------------------------------------------------------------------------------------------------------2

D----------------2-----------------------------------------------------------------------------------------------0--

A------2--------3----------2----------------------------3--------------2----------------0----------2--3--4-------

E------3--------------------3------------3------2----------------------3-----------------------------------------------


(G) Two thieves left. They both a-gree.

(G) They live and (Em) die off (Am) me-lo-(D)-dy.


(G) One just fell dead, on his back.

(G) When we (Em) listen (Am) to the (D) track.

(Same) Solo

(G) One thief left. He went to jail.

(G) He left a (Em) mile on (Am) paper (D) trail.


(G) He's in for life. He doesn't care.

(G) It's worth the (Em) songs that (Am) put him (D) there.

G C G

(G)Four (C)Thieves (G) Gone

(G)Four (C)Thieves (G) Gone

(G)Four (C)Thieves (G) Gone

(G)Four (C)Thieves (G) Gone

(G)Four (C)Thieves (G) Gone

(G)Four (C)Thieves (G) Gone

(G)Four (C)Thieves (G) Gone

(G)Four (C)Thieves (G) Gone

(G)Four (C)Thieves (G) Gone

(G)Four (C)Thieves (G) Gone

(lower register)

(G)Four (C)Thieves (G) Gone

G C G

G C G

G C G

C D G

avettbrotherstabs.com is a great website! I'm on it every day. Thank you for doing this.

-Jake

Personal tools
Namespaces

Variants
Actions
Navigation
Toolbox
Ads