Me and God

From Avett Brothers Tabs
Jump to: navigation, search


    e----------------------------------------------------
    b---3--1--0-----------------1--0---------------------
    g---0--------2--0-----0--2--0-----2--0--0-----0--0---
    d---0--------------2--------2-----------2--0--2--0---
    a---2-----------------------3------------------------
    E---3------------------------------------------------
    e----------------------------------------------------
    b---3--1--0-----------------1--0---------------------
    g---0--0--0--2--0-----0--2--0-----2--0------------0--
    d---0--0--0--------2--------2-----------2-0h2p0-2----
    a---2-----------------------3------------------------
    E---3------------------------------------------------
  
    e----------------------------------------------------
    b---3--1--0-----------------1--0-----------------0---
    g---0--------2--0-----0--2--0-----2--0-----------0---
    d---0--------------2-----0--2-----------2--0--2--0---
    a---2-----------------------3------------------------
    E---3------------------------------------------------
    e---------------------------1------------------------
    b---1--0--------------------1--------------------0---
    g---2-----2--0-----------0--2--0--0--0--0--0-----0---
    d---2-----------2--0--2--0--3--3--2--0--2--0--0--0---
    a---0-----------------------------------------2------
    E----------------------------------------------------
    e----------------------------------------------------
    b---3-----3--3-----3-----3---------------------------
    g---0-----0--0-----0--0--0--0--0--0--0--0--0-----0---
    d---0-----0--0-----0--0--0--3--3--2--0--2--0--0--0---
    a---2-----------------2-----------------------2--0---
    E---3------------------------------------------------
    e---------3--3-----3-----3-----3-----3---------------
    b---------0--0-----0--0--0-----0--0--0-----0---------
    g---------0--0-----0--0--0-----0--0--0-----0---------
    d---------0--0-----0--0--0-----0--0--0-----0---------
    a---------------------2-----------2-----------0------
    E---3--------------------------------------------2---
    e---------3--3-----3-----3-----3-----3-----3-----3---
    b---------0--0-----0--0--0-----0--0--0-----0--0--0---
    g---------0--0-----0--0--0-----0--0--0-----0--0--0---
    d---------0--0-----0--0--0-----0--0--0-----0--0--0---
    a---2-----------------2-----------2-----------2------
    E---3------------------------------------------------
                                                     Well

(G)I know a preacher hes a (F)real good (G)man
Speaks from the good book (F)in his (C)hand

    e---------------------------------------
    B--------------------------------------
    G---2-0---------------------------------
    D--------2-0-----------------------------
    A--------------3-2-3-0----------------------
    E------------------------3(G)---------------

And (G)helps all people (F)when he (G)can
But me and God don't (F)need a middle (C)man

Now I found God in a soft woman's hair
A long days work and a good sittin chair
The ups and downs on the treble clef lines
And five miles to go on an interstate sign

(C)My (G)God (C)my (G)God (C)and (G)I
Don't (F)need a middle (C)man

Now I found God in a soft woman's hair
A long days work and a good sittin chair
The ups and downs on the treble clef lines
And five miles to go on an interstate sign

Now I don't doubt that the Good Book is true
But what's right for me may not be right for you
So church on Sunday I stand beside
For all the hurtin people with the fear in their eyes

And I thank the Lord for the country land
And just like Paul I thank Him for my hands
But I don't know if my soul is saved
Cause sometimes I use curse words when I pray

Personal tools
Namespaces

Variants
Actions
Navigation
Toolbox
Ads