One Line Wonder

From Avett Brothers Tabs
Jump to: navigation, search
  • Intro
 e--0---------------------------------------------0-------------------------------
 B----3-----0----------------0-3-0------------------3-----0------------0-3-0------
 G--------2---2--0-------0h2-------0---------0---------2----2-0----0h2--------0---
 D---------------------------------------0h2--------------------------------------
 A--------3--------------2---------3-------------------3-----------2----------3---
 E--3---------------------------------------------3-------------------------------
 
 e--------------------------------------------------------------------------------
 B-----------------0------0------------0------0-----------------------------------
 G------------0--------2----2-0-------------2----2-0-------0----0------0----0----0-
 D---0h2h4-------------------------2--------------------0h2--0h2-------------------
 A---------------------3--------------------3----------------------3-----2-----0------
 E------------3--------------------0------------------------------------------------3-


  • Banjo

The second time Seth plays this riff on guitar (and from then on) he is joined by the banjo.
Here is a simple version of Scott's part:

 D---2---0------------------------------------------------------------------------
 B------------------0------------------0---h3----0------------0------------------
 G--------------2------2---0--0--h2--------------------0------------------0----
 D--------------------------------------------------------------------h2----------
 G---0---0-----------------------------------------------------------------------
 
 D---2---0---------------------------------------------------------------------------
 B------------------0------------------0---h3----0------------0---------------------
 G--------------2------2---0--0--h2--------------------0-------------------------0--
 D--------------------------------------------------------------------h2----h4------
 G---0---0----------------------------------------------------------------------
 
 D----------------------------------------------------------------------2--------------
 B----------------------------------------------------------------------1-------------
 G--4--2--4--2--0---------4--2--4--2---0-----------0-----------0--------0-------------
 D---------------------2---------------------0-h2------0-h2---------2-------------
 G------------------------------------------------------------------------------------ 


(G)I (Em)love you but I (B7)cant remember (C)why
(G)Stars (Em)fallen from a (B7)half forgotten (C)sky
I was a (G)one line (B7)wonder in my (Em)own love (C)song

I keep a little journal by my bed
Dreams help me find the words I haven't said
Like when a little girlie said goodbye to me

From (D)behind a (C)screen (G)door
I won't (D) see her (C)again, I'm (G)sure
(N.C.)Didn't I (G)say I (C)need (G)you?
I tried to (G)move (Am)on (F)but (C)I (G)can't
(N.C.)I tried to (G)think of (C)bad (G)times
Good memo(G)ries (Am)are (F)all (C)I (G)have.

(Em)(B7)(C)(G)(Em)(B7)(C)(G)(B7)(Em)(C)

I love you but I can't remember why
I'd love to find a reason to deny
I was a one-hit wonder in my own hometown

And I guess I might have made a few mistakes
But maybe that's exactly what it takes
To get a little happy in this big sad world

How many have you made
And which of those have you laid on down to die
Well didn't I say I need you
I tried to move on but I can't
I tried to think of bad times
Good memories are all I have

Personal tools
Namespaces

Variants
Actions
Navigation
Toolbox
Ads