Paranoia in B-Flat Major

From Avett Brothers Tabs
Jump to: navigation, search

Capo 4

(Gmaj7) = 3 2 0 0 0 2
(G6) = 3 2 0 0 0 0
(G+) not sure what this chord is = 3 2 0 0 3 0

(G)(Gmaj7)(G6)(G+)(Am)(D)(Am)(D)

I keep telling myself that it'll be fine
You can't make everybody happy all of the time
But I've found myself in a place that Ive never been
a place that I thought I would never be
There's people looking back at me

I keep having this dream
I'm at a party there's people throwing drinks and screaming
tellin me that I don't belong
Lately lifes been the same I find this comfortable place
with all my friends and then my friends start tellin me
I've always been wrong

Little part after the second verse:

 e--------7--------5---------3----(Gmaj7)-------
 B----------------------------------------------
 G----------------------------------------------
 D----------------------------------------------
 A------------0---------------------------------
 E---3-------------------3----------------------

There was a time I could move
There was a time I could breathe
through crowded places filled with angry faces that didn't once cross my mind

With paranoia on my heels
Would you love me still
when we awake and you find that the sanity is gone from my eyes

I got secrets from you you got secrets from me
Because your so worried bout what I'm gonna think
Baby I'm worried too

But if love is a game then girl your gonna win
I spend the rest of my life bringing victory in
If you want me to



  • Banjo tabbed by Scullypit


Capo III, 5th string tuned up 3 steps to A#

 F---5---5-5---5-5---5-5--0h4---4-4---4-4---4-4---4\2---2-2---2-2---2-2--0---0-------------0-
 D---0---0-0---0-0---0-0--0-----0-0---0-0---0-0---0-----0-0---0-0---0-0--0---0-0--1-3--3-1---
 A#--0---0-0---0-0---0-0--0-----0-0---0-0---0-0---0-----0-0---0-0---0-0--0-------------------
 F---5---5-5---5-5---5-5--5\4---4-4---4-4---4-4---4\2---2-2---2-2---2-2--0-------------------
 a#--0---0-0---0-0---0-0--------------0-0---0-0---0-----0-0---0-0---0-0--0-----0--0-0--0-0---
 
 F---------2-------2-------0-------0--------0------------2-------2-------0--0-------0--------
 D-----1-------1-------1-------1-------1---------1---1-------1-------1------1-------1--------
 A#------2-------2-------2-------2-------2-------------2-------2-------0----2-------2-0---0--
 F---2-------2-------2-------0----------------0----2-------2-------2--------0-----------4---
 a#------------------------------------------------------------------------------------------


 all of the time
 F---------------------------7----------------
 D------------------5--------7----------------
 A#-------------------5------7----2-2/4--5----
 F------------------------7-------------------
 a#-------------------------------------------
Personal tools
Namespaces

Variants
Actions
Navigation
Toolbox
Ads