Pretend Love

From Avett Brothers Tabs
Jump to: navigation, search

Capo II

dont be fooled by my (C)words (C7)
dont be fooled by my (F)song (Fm)
if you choose to (C)belive them (F)(C)
you'll plainly be (G or G7)wrong

 e--------------------------------------------------------------------------------
 B------------------------------------------------------------------------8-------8(h)9----
 G--0-0-0--0(h)2-2(s)4--4-4-4----7-7-7-7(h)9--7--9-9(s)10---10------10------------
 D--------------------------------------------------------------------------------
 A--------------------------------------------------------------------------------
 E--------------------------------------------------------------------------------
 
 e--------------------------------------------------------------------------------
 B-----9(s)11--9(h)11(p)9--8(h)9(p)8--------------------8--6666(h)8(p)6--5(h)6(p)5
 G-10------------------------------------10-9---10-10-10-----------------------------
 D--------------------------------------------------------------------------------
 A--------------------------------------------------------------------------------
 E--------------------------------------------------------------------------------
  
 e--------------------------------------------------------------------------------
 B------8-------------------------------------------------------------------------
 G--7-7----7(s)9--(s)5---0-2(h)3(p)2-0--------------------------------------------
 D------------------------------------------2(h)3(p)2-0-------------------------------
 A---------------------------------------------------------3-(slide fast up neck/mute)
 E--------------------------------------------------------------------------------


I have love for my family
I have love for my friends
That's as far as it goes and I must let you know
My love for you was pretend

Don't you know I've a gift, and I've wrapped it in truth,
your birthday's tomorrow, But the gift is not for you,
But if I came with a present, I would bring you a clue,
in hopes you'd finally see, that your feelings for me
will never be returned

Personal tools
Namespaces

Variants
Actions
Navigation
Toolbox
Ads