Pretty Girl from Chile

From Avett Brothers Tabs
Jump to: navigation, search

Banjo Intro (tuned down half a step)

 D--0-------0----------0-------------0------------0------0-----------------0------------0-------------0-----0-----0----0-----0--
 B--0----0-----0------------0-------------0--------------------0----------------0-------------0-------0-----0-------------------
 G--0-------------------------------------------------2s4----------0----------------------------------0--0--0-------2s4--------- 
 D--0-------------------------------------------------------0--------------------------------------------0----------------------
 G-----------------0------------0-------------0-------------------------0-----------0--------------0----------------------0-----


Played tuned down half a step on the album.

(G)I’m no more than a friend girl
I can (Em)see that you need more
My (C)boots are on my (D7)feet now
My (G)bag is by the (C)door

And the (G)love and the attention
That you (Em)need and ask me for
Are (C)weakened by my (D7)actions
And (G)lies that I have (C)told

 D-----------2----------2----------2-------0-------------------
 B-----1---------1----------1----------------------------------
 G--------0----------------------------2s4----2--0-------------
 D--2----------------------------------------------------------
 G-------------------0----------0------------------------------


(Am)I’m scared to (D)think that I’ve (G)abandoned you

 D--------0----0------0-----0----------------------------
 B------0--------0----0-----0----------------------------
 G--2s4------------4-----2----0--------------------------
 D--------------------------------0--2--0----------------
 G----------0--------------------------------------------


(Am)I’d like to say that I’m a (D)faithful man but (G)it may (F) not be (C)true

Am D7 G
And my heart is like a mason’s
Hands of weathered skin
Each scar makes it harder
For me to hurt again
I’m scared to think that I’ve abandoned you
I’d like to say that I’m a faithful man but it may not be true


(Bm)Gabriella, the things that I (Em)tell ya
Are all meant to (Am)help ya
Are they working (G)out (F#)
Have I gone, have I gone and failed ya
Gabriella, have I let you down

Gabriella, the things that I tell ya
Are all meant to help ya
Are they working out
Have I gone, have I gone and failed ya
Gabriella, have I let you down

Personal tools
Namespaces

Variants
Actions
Navigation
Toolbox
Ads