Signs

From Avett Brothers Tabs
Jump to: navigation, search

(G)It's the place and your (Bm)friends that got me (G)down
Telling me I should (Bm)not hang (G)around
(D)There's a sign in the (C)window(G)
(D)Telling me I've got to (C)go(G)

(D)uh uh uh
(C)uh uh uh
(G)uh uh uh

I see the signs every day
In your face and in the way that you act
It's not that that hurts my pride
Now I see the other side of you
The side that won't let down the side that wont let go

  • Solo tabbed by Nate Shepherd
 e--------------------------------------7------------------------------5---------
 B--0--1/3-3--3h5p3-0--3h5p3-0-3/7----------12*----------3-0-3h5-3--0-------12*--
 G--0--2/4-4-------------------------7-------------0-2/4-------------------------
 D------------------------------------------12*-----------------------------12*--
 A-------------------------------------------------------------------------------
 E-------------------------------------------------------------------------------
 
 e----------------------0-2-3-0-3-5-0-5-7-0-7-8-0-8-10-10/12--10-8-8h10-8--------
 B--------------0-1-3------------------------------------------------------------
 G--------0-2-4------------------------------------------------------------------
 D--0-2-4------------------------------------------------------------------------
 A-------------------------------------------------------------------------------
 E-------------------------------------------------------------------------------
 
 e--5h7p5-5-7-5-3-3-5-5/7-5-3------------------10-----7----7----7----7----7------
 B---------------------------------10h12p10-------------8----8----8----8----8----
 G------------------------------------------12------------7----7----7----7----7--
 D-------------------------------------------------------------------------------
 A-------------------------------------------------------------------------------
 E-------------------------------------------------------------------------------
 
 e--7----7----12----12----12----12----12----12----12----12--------12-10-7/10-----
 B----8----8----13----13----13----13----13----13----13----13---------------------
 G------7----7----12----12----12----12----12----12----12----12-------------------
 D-------------------------------------------------------------------------------
 A-------------------------------------------------------------------------------
 E-------------------------------------------------------------------------------
 
 e----------------------------------------------5--7--5-3---8-8-8-7-5-5/7--------
 B---------8-8/10—8-10-8-10/12-8----5---6-6/8------------------------------------
 G--9/11-7-----------------------9----5---------5--7--5-4---9-9-9-7-5-5/7--------
 D-------------------------------------------------------------------------------
 A-------------------------------------------------------------------------------
 E-------------------------------------------------------------------------------
 
 e--0-3-2-0--------------------3-------------------------------------------------
 B----------3-1-0---0-------0--0-------------------------------------------------
 G----------------2---2-0------0-------------------------------------------------
 D------------------------0----0-------------------------------------------------
 A-----------------------------2-------------------------------------------------
 E-----------------------------3-------------------------------------------------

Didn't mean for me to see
the things I see in you and me
Now I know that we can live together
The way I want to live free forever



  • Banjo tabbed by Scullypit
 D----------0-------0-------0-------0------4-----4-------4-------4------
 B--0-----------0-------0-------0--------3-----3-----3-------3-------3--
 G--0-----0---------------0---------------------------------------------
 D--------0----------------------------4-----4-----4-------4-------4----
 g----0-----------0---------------0-------------------------------------
 
 D--------0-------0--------0----0----0-----4-----4-----4-----4---0---0--
 B----0-------0-------0------------------3-----3-----3-----3------------
 G--0-----------0-------2----0------------------------------------------
 D--------------------------------2----4-----4-----4-----4--------------
 g------0----------------------------------------------------------0----
 
 D----0---------0----0----0----0----0----0----0------0------0---0------0-------
 B-----------------------------------------------------------------0-----------
 G--0---2-/-4-----4----4----5----4----2----0-----------0-2----0----------0--0--
 D----------------------------------------------0-2-------------------------0--
 g-------------------------------------------------------------------0---------
 
    It's the place....        ...got me down                           Tell
 D----0----0-------4----4----4----4------0----0-----0-----0----0-0-------
 B--0----0--------3----3----3----3---3----------0-----0-----0-------0-0--
 G----------------------------------------0---------------------0----0---
 D------------0--4----4----4----4-----4--------------0-------------------
 g---0----0------------------------------------0-----------0-------------
 
   in me....                      ...hang
 D----0----0-----0--4----4----4----4--0-0-----0----0--0--0--0--0--0----0---
 B--0----0----0----3----3----3----3-------------0---------------------1----
 G--------0----0---------------------------0--------2--0--------0---2----2-
 D----------------4----4----4----4------------------------0--2-------------
 g---0---------------------------------0-------0---------------------------
 
   There's....                      
 D---0-------0-------0---0-------2------2------2------2----0-------0-
 B-------1-------1-----------1------1------1------1----------------0-
 G-------2-----2-------0-------0------------------------0----2-/-4---
 D-0-------------------0---2----------2------2------2----------------
 g-----0-------------------------------------------------------------
 
                                  ...Telling
 D------------0---0---0---------0-----0-----0-----0----------
 B------------------------0---1-----1-----1-----1----1-------
 G--4-4----0----2---0-------2-----2-----2-----2--------2-p-0-
 D-------2--------------2------------------------------------
 g-----------------------------------------------------------
 
 ...Go                                                     uh  uh  uh
 D-------2-------2-------2-------2---0--------------------------------
 B---1-------1-------1-------1-----------0---0---0---0----0----0---0--
 G-----0---------------0-----------0-----------0------------0---------
 D-2-----------2---------------------------------------0--------------
 g-----------------------------0-------0-------------------------0----
  
                             uh uh oh
 D--------0-------0-------0--------0--------2------2---2---2-------2-
 B----1-------1-------1-------1---------1------1---------------1-----
 G--2-----------2-------------------------0------0---2---0-------0---
 D------0---------------0-------0----2-----------------------2-------
 g-------------------------------------------------------------------
 
 D----0-------0-------0---0-------0---0---0------0-------0----0----
 B--------0-------0-----------0--------------0------0--------------
 G------0---------------0-----------0---0------0------2----0-------
 D-0----------------------------0-------0-----------------------2--
 g--------------0--------------------------------------------------
Personal tools
Namespaces

Variants
Actions
Navigation
Toolbox
Ads