Smoke in Our Lights

From Avett Brothers Tabs
Jump to: navigation, search

You're not a (G)girl, you're a (D)town
You're (C)snow on the (G)ground, you're my first year in (D)school and (C)oooo
You're the (G)words in a (D)song that Shannon (Am)Hoon sang to (C)me
And (G)all aro(D)und my (C)memories, you dance

You're not a (G)girl, you're a (D)car
You're a (C)red Trans (G)Am, you're 90 miles an (D)hour and (C)ooooo
We (G)never get (D)caught cause there's (Am)no cops (C)around
And (G)no roads like (D)this, (C)downtown

(D)Why'd we (C)have to (Bm)change, it (Am)all seemed so (D)fine
we'll (C)go our own (Bm)ways
We're (Am)both asking
(D)Why'd we (C)have to (Bm)change, it (Am)all seems so (D)fine
we'll (C)go our own (Bm)ways
We're (Am)both asking, (D)why

You're not a girl, you're the night of the homecoming game
You're the voice in my head, just begging me to stay
You're the smoke in our lights, as we sped away
To worship the sunlight on the graves

Thanks to Carmen for this great solo tab!

 e|--------------------------------------------------| 
 B|-----------------3-------------3------5-------7-8-| 
 G|-----0--2-2s4---4-4-4s2--0—2s4----4s5-----5s7-----| 
 D|--0-----------------------------------------------| 
 A|--------------------------------------------------| 
 E|--------------------------------------------------| 
 
 e|-------------101010101010s8 8 8 8 8-------------------------------------| 
 B|----8--10----121212121212s1010101010---8---10b-10b---8h10p8----8v-------| 
 G|--9-----------—---------------------------------------------9-----------| 
 D|------------------------------------------------------------------------| 
 A|------------------------------------------------------------------------| 
 E|------------------------------------------------------------------------| 
 
 e|---------------------------------------------------------5--5--7--8--8—-8—----| 
 B|----------------------------------------------------------5--5--5--5--5--5----| 
 G|-------8-10-8—10b-8---8—8h10p8----8-10b-8---8-8h10--8------5--5--5--5--5--5---| 
 D|---s9---------------9-----------9---------9--------9--------------------------| 
 A|------------------------------------------------------------------------------| 
 E|------------------------------------------------------------------------------|
 
 e|--3b----0h3p0----------------------------------------------------| 
 B|--------------3b---0-----------------1s333333s1------------------| 
 G|-----------------4-----0--2—0--------2s444444s2—0h2p0--------2b--| 
 D|----------------------------------------------------------2------| 
 A|-----------------------------------------------------------------| 
 E|-----------------------------------------------------------------|

You're not a girl, you're a waltz
You're a canopy bed, you're June till August (and wooo)
You're the back and forth sway, of the hammock all day
When I asked you, what did you say

Why'd we have to change, it all seems so fine
we'll go our own ways
We're both asking
Why'd we have to change, it all seems so fine
we'll go our own ways
We're both asking, why

Personal tools
Namespaces

Variants
Actions
Navigation
Toolbox
Ads