St. Joseph's

From Avett Brothers Tabs
Jump to: navigation, search


Capo IV

 e|---------------|---------------|-----------------------------|
 B|---------------|---------------|-----------------------------|
 G|---------------|---------------|-----------------------------|
 D|-4------0------|-2------0------|-0------0-----0------0-------|
 A|------2-----2--|------2-----2--|------2-----2-----2------2---|
 E|-3--3-----3----|-3--3-----3----|-3--3-----3---3-3------3-----|
  |                   		          	               |
 e|---------------|---------------|-----------------------------|
 B|---------------|---------------|-----------------------------|
 G|---------------|---------------|-----------------------------|
 D|-4---0---0---0-|-2---0---0---0-|-0---0---0---0-0---0---0---0-|
 A|---------------|---------------|-----------------------------|
 E|-3-3---3---3---|-3-3---3---3---|-3-3---3---3---3-3---3---3---|
  Intro (Guitars 1 & 2)
 
 
 e|---------------|---------------|-----------------------------|
 B|---------------|---------------|-----------------------------|
 G|---------------|---------------|-----------------------------|
 D|-4------0------|-2------0------|-0------0----------0---0---0-|
 A|------2-----2--|------2-----2--|------2-----2--------0---2---|
 E|-3--3-----3----|-3--3-----3----|-3--3-----3---3--3-----------|
  |                                      	                 |
 e|---------------|---------------|-----------------------------|
 B|---------------|---------------|-----------------------------|
 G|---------------|---------------|-----------------------------|
 D|-4---0---0---0-|-2---0---0---0-|-0---0---0---0-0---0---0---0-|
 A|---------------|---------------|---------------------0---2---|
 E|-3-3---3---3---|-3-3---3---3---|-3-3---3---3---3-3-----------|
 
 
 e|---0----0-----0---0-|-3---------------|---0---0-----0---0-|-3---------------|
 B|---1----1-----1---1-|-0-----0---0---0-|---1---1-----1---1-|-0-----0---0---0-|
 G|---0----0-----0---0-|-0-----0---0---0-|---0---0-----0---0-|-0-----0---0---0-|
 D|---0h2--2-----0h2-2-|-0---------------|---0h2-2-----0h2-2-|-0---------------|
 A|-3-3----3---3-3---3-|-2-------0---2---|-3-3---3---3-3---3-|-2-------0---2---|
 E|---0----0-----0---0-|-3---3-----------|---0---0-----0---0-|-3---3-----------|
 We spent the night at St. Joseph’s               Shaking and shivering in fever
 
 
 e|---0----0-----0---0-|-3------0--2--0----------|--------------------------|
 B|---1----1-----1---1-|-0---3-----------0--3--0-|--------------------------|
 G|---0----0-----0---0-|-0---0--0--0--0--0--0--0-|-2h4-0--------------------|
 D|---0h2--2-----0h2-2-|-0-----------------------|-----0--0---0-0---0-0---0-|
 A|-3-3----3---3-3---3-|-2-----------------------|-3---3----3-----3-----3---|
 E|---0----0-----0---0-|-3---3--3--3--3--3--3--3-|--------------------------|
 Nurses and criminals before us     I will stay here with you my love
 
 
 
 e|---------------|---------------|-------------------|------------------------|
 B|-0h1---0-------|-0h1---0-------|-0h1---0-----------|--3-----1----0----------|
 G|-0-----0-0---0-|-0-----0-0---0-|-0-----0-0---------|--0-----0----0-0--------|
 D|---------------|---------------|-------------------|-----------------0------|
 A|---------------|---------------|-------------------|------------------------|
 E|-3---3-----3---|-3---3-----3---|-3---3-----3-------|-----3-----3-------3----|
  |                                                                            |
 e|---------------|---------------|-------------------|------------------------|
 B|-0h1---0-------|-3h5----3------|-------------------|--3-----1----0—-1p0-----|
 G|-0-----0-------|-0------0------|-4p2p0—4p2p0—4p2p0-|--0-----0----0--0---0---|
 D|---------------|---------------|-------------------|------------------------|
 A|---------------|---------------|-------------------|------------------------|
 E|---------------|---------------|-------------------|------------------------|
 
 
 e|---------------|---------------|---------------|----------------|
 B|---------------|---------------|---------------|----------------|
 G|-2---4-------0-|-----0---0-----|-2---4-------0-|-----0---0------|
 D|---------2---0-|-0-----0-----0-|---------2---0-|-0-----0-----0--|
 A|-3-3---3---3---|---3-------3---|-3-3---3---3---|---3-------3----|
 E|---------------|---------------|---------------|----------------|
  |                                                                |
 e|---------------|---------------|---------------|----------------|
 B|---------------|---------------|---------------|----------------|
 G|-2---4-------0-|---------------|-2---4-------0-|--------------0-|
 D|---------2-----|---------------|---------2-----|--0--0--0—0h2---|
 A|---------------|---------------|---------------|----------------|
 E|---------------|---------------|---------------|----------------|
  
 
 e|---------------|---------------|-----------------------------|
 B|---------------|---------------|-----------------------------|
 G|---------------|---------------|-----------------------------|
 D|-4------0------|-2------0------|-0------0----------0---0---0-|
 A|------2-----2--|------2-----2--|------2-----2--------0---2---|
 E|-3--3-----3----|-3--3-----3----|-3--3-----3---3--3-----------|
  |                         			                 |
 e|---------------|---------------|-----------------------------|
 B|---------------|---------------|-----------------------------|
 G|---------------|---------------|-----------------------------|
 D|-4---0---0---0-|-2---0---0---0-|-0---0---0---0-0---0---0---0-|
 A|---------------|---------------|---------------------0---2---|
 E|-3-3---3---3---|-3-3---3---3---|-3-3---3---3---3-3-----------|
 
 
 e|---0----0-----0---0-|-3---------------|---0---0-----0---0-|-3---------------|
 B|---1----1-----1---1-|-0-----0---0---0-|---1---1-----1---1-|-0-----0---0---0-|
 G|---0----0-----0---0-|-0-----0---0---0-|---0---0-----0---0-|-0-----0---0---0-|
 D|---0h2--2-----0h2-2-|-0---------------|---0h2-2-----0h2-2-|-0---------------|
 A|-3-3----3---3-3---3-|-2-------0---2---|-3-3---3---3-3---3-|-2-------0---2---|
 E|---0----0-----0---0-|-3---3-----------|---0---0-----0---0-|-3---3-----------|
  |                                                                            |
 e|--------------------|-----------------|-------------------|-----------------|
 B|--------------------|-----------------|-------------------|-----------------|
 G|--------------------|-----------------|-------------------|---5p4\2—2p0-----|
 D|--------------------|-----------------|-------------------|-------------2p0-|
 A|--------------------|-----------------|-------------------|-----------------|
 E|--------------------|-----------------|-------------------|-----------------|
  We sat at Lake Junaluska                     Cried over where we would wed
 
  
 
 e|---0----0-----0---0-|-3------0--2--0----------|--------------------------|
 B|---1----1-----1---1-|-0---3-----------0--3--0-|--------------------------|
 G|---0----0-----0---0-|-0---0--0--0--0--0--0--0-|-2h4-0--------------------|
 D|---0h2--2-----0h2-2-|-0-----------------------|-----0--0---0-0---0-0---0-|
 A|-3-3----3---3-3---3-|-2-----------------------|-3---3----3-----3-----3---|
 E|---0----0-----0---0-|-3---3--3--3--3--3--3--3-|--------------------------|
  If it’s this place or any other   It’s not where am I, it’s who I’m with
 
 
 e|-------------------|-----------------|---------------------|----------------|
 B|-3-----------------|-3---------------|-3-------------------|----------------|
 G|-------------2h4---|-----------------|---------4p2---2h4-2-|-0--------------|
 D|---0---0---0-----0-|---0---0---0---0-|---0---0-----0-------|---0---0---0--0-|
 A|-------------3-----|-----------------|---------3-----3---3-|----------------|
 E|-3---3---3---------|-3---3---3---3---|-3---3---------------|-3---3---3---3--|
  |                                                                            |
 e|---------2--0------|-----------------|----------2--0-------|----------------|
 B|-3--0--3-------3---|-0---------------|-3--0--3--------3----|-0--------------|
 G|-------------------|-----------------|---------------------|----------------|
 D|-------------------|-----------------|---------------------|----------------|
 A|-------------------|-----------------|---------------------|----------------|
 E|-------------------|-----------------|---------------------|----------------|
 
 
 e|---------------------|------------------|-------------------------|
 B|-3-------------------|-0----------------|-------------------------|
 G|----------4h5---4--2-|----------4h5---4-|—4---2---2---2h4---2---2-|
 D|---0---0------0------|---2---2------0---|---0---0---0-----0---0---|
 A|----------3-----3--3-|----------3-----3-|-------------3-----3---3-|
 E|-3---3---------------|-0---0------------|-3---3---3---------------|
  |           		                                             |
 e|----------2--0-------|-3----2----0----7-|-------------------------|
 B|-3--0--3--------3----|------------------|-0-----------------------|
 G|---------------------|------------------|---2p0--2p0—2/4—2p0--2---|
 D|---------------------|------------------|-------------------------|
 A|---------------------|------------------|-------------------------|
 E|---------------------|------------------|-------------------------|
 
 
 e|-------------------------|-------------|---------------------|-3------------|
 B|-------------------------|-3---0-------|---------------------|-0---0---0--0-|
 G|-0-----------------------|---0---0---0-|-2--4--2--0--2--4--2-|-0---0---0--0-|
 D|---0---0-----------------|---------0---|---------------------|-0------------|
 A|-------------------------|-------------|-3--3--3--3--3--3--3-|-2-----0---2--|
 E|-3---3---3-3-3-3-3-3-3-3-|-3---3-------|---------------------|-3--3---------|
  |                                                                            |
 e|-------------------------|-------------|---------------------|--------------|
 B|-------------------------|-0h1--0----0-|---------------------|--------------|
 G|-0-----------------------|---------2---|-0h2-4--0--2---------|-0------------|
 D|-------------------------|-------------|---------------------|--------------|
 A|-------------------------|-------------|---------------------|--------------|
 E|-------------------------|-------------|---------------------|--------------|
 
 e|---0----0-----0---0-|-3---------------|---0---0-----0---0-|-3---------------|
 B|---1----1-----1---1-|-0-----0---0---0-|---1---1-----1---1-|-0-----0---0---0-|
 G|---0----0-----0---0-|-0-----0---0---0-|---0---0-----0---0-|-0-----0---0---0-|
 D|---0h2--2-----0h2-2-|-0---------------|---0h2-2-----0h2-2-|-0---------------|
 A|-3-3----3---3-3---3-|-2-------0---2---|-3-3---3---3-3---3-|-2-------0---2---|
 E|---0----0-----0---0-|-3---3-----------|---0---0-----0---0-|-3---3-----------|
  |                                  			                      |             
 e|--------------------|-----------------|-------------------|-----------------|
 B|--------------------|-------------12+-|-------------------|-----------------|
 G|--------------------|---------12+-----|-------------------|-----------------|
 D|--------------------|-----12+---------|-------------------|-----------------|
 A|--------------------|-----------------|-------------------|-----------------|
 E|--------------------|-----------------|-------------------|-----------------|
    News came of a child                           Born unto a world
 e|---0----0-----0---0-|-3------0--2--0----------|--------------------------|
 B|---1----1-----1---1-|-0---3-----------0--3--0-|--------------------------|
 G|---0----0-----0---0-|-0---0--0--0--0--0--0--0-|-2h4-0--------------------|
 D|---0h2--2-----0h2-2-|-0-----------------------|-----0--0---0-0---0-0---0-|
 A|-3-3----3---3-3---3-|-2-----------------------|-3---3----3-----3-----3---|
 E|---0----0-----0---0-|-3---3--3--3--3--3--3--3-|--------------------------|
    Of people demented and wild       I will be here for you my love
 
 e|-----------|-----------------|----------------------|
 B|-----------|-----------------|----------------------|
 G|-0---------|-0h2---3---------|-0--------------------|
 D|---0---0---|-----0-----0h2---|---0---0----0---0---0-|
 A|-----------|-3-----0---------|--------------0---2---|
 E|-3---3---3-|-----------------|-3---3---3-3----------|
  |	                           	                |
 e|-----------|-----------------|----------------------|
 B|-0---------|-0---------------|----------------------|
 G|-----------|----2--0--2------|-0--------------------|
 D|-----0h2---|-----------------|----------------------|
 A|-----------|-----------------|----------------------|
 E|-----------|-----------------|----------------------|
 
 e|---0----0-----0---0-|-3---------------|---0---0-----0---0-|
 B|---1----1-----1---1-|-0-----0---0---0-|---1---1-----1---1-|
 G|---0----0-----0---0-|-0-----0---0---0-|---0---0-----0---0-|	
 D|---0h2--2-----0h2-2-|-0---------------|---0h2-2-----0h2-2-|
 A|-3-3----3---3-3---3-|-2-------0---2---|-3-3---3---3-3---3-|
 E|---0----0-----0---0-|-3---3-----------|---0---0-----0---0-|
    What were our reasons for fighting?           Selfish and centered at best
 
 e|-3--------------------------------|
 B|-0-----0---0---0------------------|
 G|-0-----0---0---0------------------|
 D|-0--------------------------------|
 A|-2-------0---2--------------------|
 E|-3---3----------------------------|
  |                                  |
 e|-3p2p0------------3p2p0-----------|
 B|-------3p1p0------------3p1p0-----|
 G|-------------2p0--------------2p0-|
 D|----------------------------------|
 A|----------------------------------|
 E|----------------------------------|
 
 e|---0----0-----0---0-|-3------0--2--0----------|--------------------------|
 B|---1----1-----1---1-|-0---3-----------0--3--0-|--------------------------|
 G|---0----0-----0---0-|-0---0--0--0--0--0--0--0-|-2h4-0--------------------|
 D|---0h2--2-----0h2-2-|-0-----------------------|-----0--0---0-0---0-0---0-|
 A|-3-3----3---3-3---3-|-2-----------------------|-3---3----3-----3-----3---|
 E|---0----0-----0---0-|-3---3--3--3--3--3--3--3-|--------------------------|
   I give up on trying     To understand why we were blessed
 
 e|--------------|-------------|
 B|-0------------|-0-----------|
 G|------4h5---2-|-----------4-|
 D|----------0---|---2---2-----|
 A|------3-----3-|-----------3-|
 E|-3------------|-0---0---0---|
  |                            |
 e|------2--0----|-3--2--0---7-|
 B|-3----------3-|-------------|
 G|--------------|-------------|
 D|--------------|-------------|
 A|--------------|-------------|
 E|--------------|-------------|
 
 e|---------------|---------------|-----------------------------|-0-----3-|
 B|---------------|---------------|-----------------------------|-1-----0-|
 G|---------------|---------------|-----------------------------|-0-----0-|
 D|-4------0------|-2------0------|-0------0----------0---0---0-|-2-----0-|
 A|------2-----2--|------2-----2--|------2-----2--------0---2---|-3-----2-|
 E|-3--3-----3----|-3--3-----3----|-3--3-----3---3--3-----------|-0-----3-|
  |   			                                                  |
 e|---------------|---------------|-----------------------------|---------|
 B|---------------|---------------|-----------------------------|---------|
 G|---------------|---------------|-----------------------------|---------|
 D|-4---0---0---0-|-2---0---0---0-|-0---0---0---0-0---0---0---0-|---------|
 A|---------------|---------------|---------------------0---2---|---------|
 E|-3-3---3---3---|-3-3---3---3---|-3-3---3---3---3-3-----------|---------|
                                                           We’ll spend the night at St. Joseph’s
Personal tools
Namespaces

Variants
Actions
Navigation
Toolbox
Ads