Swept Away

From Avett Brothers Tabs
Jump to: navigation, search

Well (G)you send my life a (C)whirling
(C)darling when you're (G)twirling
on the (D)floor

Who cares about tomorrow
What more is tomorrow
than another day

When (Em)you (C)swept me (G)away
Yeah you swept me away

I see the end of the rainbow
but what more is a rainbow
than colors out of reach?
If you come down to my
window, and I climb out my
window, then we'll get out of
reach, and you swept me away

You said with such honest feeling
but what'd you really mean when
you said that I'm your man

Well how my darling can it be
when you have never seen me
and you never will again
that you swept me away

Life is ever changing
but I will always find
a constant and comfort in your love

With your heart my soul is bound
and as we dance I know that
heaven can be found



  • Banjo tabbed by Scullypit
 D--0--0---0-------0-------------------------0-------------------------0--
 B-------------0------1-0------------1---1------1-0-----------0----0------
 G--0------0----------0-0--2--0-------------------0--2--0-----------------
 D-------------------------------2-------------------------0--------------
 g--0--0---0-----0----0--------------------0------0------------------0----
                                                          harm
 D-------------0-------0-------0--------0---------0-------12*-----
 B--1-0--------------1------------------------------------12*-----
 G----0--2--0----2------------------------------------0---12*-----
 D-----------------------0-h-2---2-2-/3---3-3-/4----------12*-----
 g----0---------------------------------------------0-------------
Personal tools
Namespaces

Variants
Actions
Navigation
Toolbox
Ads