The D Bag Rag

From Avett Brothers Tabs
Jump to: navigation, search

Grab a couple of friends and a kazoo. The tabs correspond to the progressions directly above them. Enjoy!

(F)(C)(F)(C)
(Am)(F)(Am)(F)

 4x
 e--------0--------------------------
 B--1-3-----3-1-----1--------------
 G----------------2-----------------
 D-----------------------------------
 A-----------------------------------
 E-----------------------------------

(C)(G)(F)(Dm)
(C)(G)(C)

 e--0---0-----------------------------0---0---------------------------------------
 B----1----3-0-3--1----1--3-0-3-------1----3-0-3----1-1---------------------
 G--------------------2---------------------------------------0h2p0----------------------
 D---------------------------------------------------------------------2-----------------
 A------------------------------------------------------------------------3----------------
 E----------------------------------------------------------------------------------------


(F)(C)(F)(C)
(Am)(F)(Am)(F)

 <----Extremely fast----->2x's
 e--------------------------------------------------0-------
 B--1h3p1-----1h3p1-----1h3p1----1h3p1---------------
 G---------2----------2-----------2---------2-------------
 D----------------------------------------------------------
 A----------------------------------------------------------
 E---------------------------------------------------------
 
 <-this whole part 2x's--[-----extremely fast--------]----->
 e------------------------------------------------------------------------
 B------------------------------------------------------------------------
 G------------------------------------------------------------------------
 D----------2-----------0h2p0----0h2p0----0h2p0---0h2p0-------------
 A-0-0-2-3-----3-2-0-----------3--------3---------3---------3----------
 E-------------------------------------------------------------------------

(C)(G)(F)(Dm)
(C)(G)(C)

 e------0---0--3-0-3s5-3-5s8-5-8--12-----12---15-12--------------
 B--------1------------------------------13----------------15-13--------
 G------------------------------------------------------------------------
 D------------------------------------------------------------------------
 A------------------------------------------------------------------------
 E------------------------------------------------------------------------

(Em)(F)
(Em)(F)
(Em)(F)
(Em)(F)

 4x's
 e---------0-3-0----------------
 B---0-3-----------3-1----------
 G-----------------------------------
 D---------------------------------------
 A--------------------------------------------
 E----------------------------------------------

(C)(G)(F)(Dm)
(C)(G)(C)

 e--3-0----3-0-----0--------0----3-0--------0--------------------------------------
 B-------1------1-----3-1-3---1-------1--3-----3---1-1-------------------------------
 G---------------------------------------------------------0h2p0---------------
 D-----------------------------------------------------------------2------------
 A--------------------------------------------------------------------3----------
 E------------------------------------------------------------------------------


(F)(C)(F)(C)
(Am)(F)(Am)(F)

 <----Extremely fast----->2x's
 e---------------------------------------------------------
 B--1h3p1-----1h3p1-----1h3p1----1h3p1----3s5-----------
 G---------2----------2-----------2---------2-------------
 D----------------------------------------------------------
 A----------------------------------------------------------
 E---------------------------------------------------------
 
 <-this whole part 2x's--[-----extremely fast--------]----->
 e------------------------------------------------------------------------
 B------------------------------------------------------------------------
 G------------------------------------------------------------------------
 D----------2-----------0h2p0----0h2p0----0h2p0---0h2p0-------------
 A-0-0-2-3-----3-2-0-----------3--------3---------3---------3----------
 E-------------------------------------------------------------------------

(C)(G)(F)(Dm)
(C)(G)(C)

 e------0---0--3-0-3s5-3-5s8-5-8--12-----12---15-12--------------
 B--------1------------------------------13----------------15-13--------
 G------------------------------------------------------------------------
 D------------------------------------------------------------------------
 A------------------------------------------------------------------------
 E------------------------------------------------------------------------

(Em)(F)
(Em)(F)
(Em)(F)
(Em)(F)

 4x's
 e---------0s3-0----------------
 B---0-3-----------3-1----------
 G-----------------------------------
 D---------------------------------------
 A--------------------------------------------
 E----------------------------------------------

(C)(G)(F)(Dm)
(C)(G)(C)

 e------0---0--3-0-3s5-3-5s8-5-8--12-----12---15-12--------------
 B--------1------------------------------13----------------15-13--------
 G------------------------------------------------------------------------
 D------------------------------------------------------------------------
 A------------------------------------------------------------------------
 E------------------------------------------------------------------------

(F)(C)(F)(C)
(Am)(F)(Am)(F)

 4x
 e--------0--------------------------
 B--1-3-----3-1-----1--------------
 G----------------2-----------------
 D-----------------------------------
 A-----------------------------------
 E-----------------------------------

(C)(G)(F)(Dm)
(C)(G)(C)

 e------0---0--3-0-3s5-3-5s8-5-8--12-----12---15-12--------------
 B--------1------------------------------13----------------15-13--------
 G------------------------------------------------------------------------
 D------------------------------------------------------------------------
 A------------------------------------------------------------------------
 E------------------------------------------------------------------------
Personal tools
Namespaces

Variants
Actions
Navigation
Toolbox
Ads