The Day That Marvin Gaye Died

From Avett Brothers Tabs
Jump to: navigation, search

(G)(Am)(G)(D)

(G)I think I (Am)dreamed you
(C)again last (D)night
(G)I hope wher(Am)ever you are
(C)things turned out (D)right
(Bm)but its never (G)the same
(Bm)when you lose (G)and you gain

(C)I see the (D)truth now
(C)I see the (D)truth now
(C)I just want to (D)hold you
(C)I should have (D)told you
(C)We are in (D)love
We are in(G)

Your tan stomach; and that mole on your lip.
We coulda had it all in one time; if I didn't slip.
Trip on my words; and land on my heart.

I see the truth now
I see the truth now
I just want to hold you
I should have told you
We are in love
We are in ...
We are in ...
We are in ...

at the end of the second verse is the solo
This is pretty close

p=pull off
b=bend
s=slide

 e---5---7---8---s--10----------------
 B---7---8---10--s--12----------------
 G------------------------------------
 D------------------------------------
 A------------------------------------
 E------------------------------------
 
 e---12--10--8--7--8------------------
 B---------------------7---8----------
 G------------------------------------
 D------------------------------------
 A------------------------------------
 E------------------------------------
 
 e-------------10------------10-------
 B---5--7--8-------8---7b-----------8-
 G------------------------------------
 D------------------------------------
 A------------------------------------
 E------------------------------------
 
 e------------------------------------
 B------5--7--8--7--5-------5--7------
 G---7------------------7-------------
 D------------------------------------
 A------------------------------------
 E------------------------------------
 
 e---7bp5-------s10--------7bp5-------s10------
 B----------8---------8----------8-----------8-
 G---------------------------------------------
 D---------------------------------------------
 A---------------------------------------------
 E---------------------------------------------
 
 e---7--5-----------------------0--2--3(G)-----
 B---------8--7---------5--7-------------------
 G-----------------7---------------------------
 D---------------------------------------------
 A---------------------------------------------
 E---------------------------------------------


The road can be cold
and it's always long.
The sermon I whisper these days
are the words to a song
Are you in the old town?
Are you buckled in?

It's not the same
Our lives are not the same
I still want to hold you
I should have told you
We are in love
We are in ...

(Em)love is (Am)on its way
(C)the dying wish of Marvin Gaye(D)
(Em)Michelle I (Am)know you'll under(C)stand
The (D)answers (C)in your (G)hands
The (D)answers (C)in your (G)hands
(C)in your (G)hands

Personal tools
Namespaces

Variants
Actions
Navigation
Toolbox
Ads