Walking for You

From Avett Brothers Tabs
Jump to: navigation, search

Banjo Tab

                                              (G)
 D----2---s5------2-----0---------------------------------                    
 B------------------------------0------------------------------ 
 G-----------------------------------0-------------------------
 D-------------------------------------------------------------
 G----0-----------0-----0-------------------------------------
 
                                              (D)
 D----2---s5------2-----0---------------------------------
 B------------------------------0------------------------------
 G-----------------------------------0-------------------------
 D-------------------------------------------------------------
 G----0-----------0-----0-------------------------------------
 
                                             (G)     (C)     (D)
 D----2---s5------2-----0---------------------------------
 B------------------------------0--------------------------
 G-----------------------------------0---------------------
 D----------------------------------------------------------
 G----0-----------0-----0--------------------------------


Ain't got no (G)money
But I got (D)time
I don't care about the (G)sunshine
but I (C)love to (D)see you (G)smile

(G)(D)
(G)(C)(D)(G)

So you say your lonesome
Baby dry your eyes
Cause there's a road to your doorstep
I'll be there by morning's light

Chorus

(C)I don't have an answer
For (G)when you ask me why
You see I (Am)know I love you baby like I (F)know I'm never ever
gonna (G)let you say Good(Dm)bye
Say Good(F)bye, say good(D)bye (G)

I've got an old Ford pick up truck
I've got a Cadillac
I don't care how I get there
Transportation wont hold me back

I don't have an answer
For when you ask me why
You see I know I love you baby like I know I'm never ever
Gonna let you ever say goodbye
Say Goodbye, say goodbye

Cause I've had bad lovers yeah
That walked to my backdoor
I wasted years walkin for them gals
That's how I know your worth walkin for

So you say you're so in love
Baby so am I
I don't care if I'm on the road
Cause I'm always by your side

I don't have an answer
For when you ask me why
You see I know I love you baby like I know I'm never ever
Gonna let you ever say Goodbye
Say Goodbye, say goodbye

Personal tools
Namespaces

Variants
Actions
Navigation
Toolbox
Ads