Where Have All The Average People Gone?

From Avett Brothers Tabs
Jump to: navigation, search


Originally performed by Roger Miller

Capo II

  • Intro tabbed by Scullypit
 e--------0-------0------------------------------------------------------
 B--1---1-------1---------1-------1--------1-------1-----------0-------1-
 G--0-------------------------0----------------2----(2)p0----------0-----
 D----------------------0-------0--------2-------2----------0--------0---
 A--3-------3-------2-------2--------0-------0---------------------------
 e------------------------------------------------------3--------3-------
 
 e--------1-------1--------------------------------0--------0-0----------
 B------------1-----------0-------0-------1------1-----------------------
 G------2-------2-----0-------0----------------0-0--------0--------0-----
 D--3-------3-----------0-------0-------2--------2----------2--------0---
 A-----------------------------------3-------3---3------3--------3-------
 e------------------3-------3--------------------------------------------



    C/B        Am/G 
 e---0--     e---0--
 B---1--     B---1--
 G---0--     G---2--
 D---0--     D---2--
 A---2--     A---0--
 e---0--     E---3--  <--(Hint: use your thumb!)


(C)The people in the (C/B)city call me (Am)country, (Am/G)
(F)Because of how i (G)walk and talk and (C)smile.
(C)Well i don't mind them (C/B)laughing in the (Am)city, (Am/G)
(F)But the country folks all (G)say i'm (C)citified.

The fighting men they say that i'm a coward.
Because i never push no one around.
Gentle people call me troublemaker,
Cause i'll always fight and stand my ground.

(F)Funny i don't (Em)fit.
(Dm)Where have all the (G)average people (C)gone?

Some pious people point and call me sinner,
Because to them i've never seen the lights.
Other folks think of me as a preacher.
I'm just doing what i think is right.

The wealthy people think that i am a hobo,
Lean and hungry, writing mournful songs.
And the poor, poor people think i am a rich man,
But really, i'm just trying to get along.

It's funny i don't fit.
Tell me where have all the average people gone?

And the government has given me a number,
To simplify my birth and life and death.
And still my woman thinks i'm awful important,
Like the moon and the sun and the sea and the sky and breath.

Yes, it's funny i don't fit.
Where have all the average people gone?

Honey i don't fit,
Where have all the average people gone?

Personal tools
Namespaces

Variants
Actions
Navigation
Toolbox
Ads